  0
SECTION
  2
HEADER
  9
$ACADVER
  1
AC1015
  9
$ACADMAINTVER
 70
    20
  9
$DWGCODEPAGE
  3
ANSI_1252
  9
$INSBASE
 10
0.0
 20
0.0
 30
0.0
  9
$EXTMIN
 10
-3.069102784255481
 20
-3.054632427779025
 30
0.0
  9
$EXTMAX
 10
10.29601870691287
 20
7.701314351646638
 30
0.0
  9
$LIMMIN
 10
0.0
 20
0.0
  9
$LIMMAX
 10
12.0
 20
9.0
  9
$ORTHOMODE
 70
     0
  9
$REGENMODE
 70
     1
  9
$FILLMODE
 70
     1
  9
$QTEXTMODE
 70
     0
  9
$MIRRTEXT
 70
     0
  9
$LTSCALE
 40
1.0
  9
$ATTMODE
 70
     1
  9
$TEXTSIZE
 40
0.2
  9
$TRACEWID
 40
0.05
  9
$TEXTSTYLE
  7
Standard
  9
$CLAYER
  8
0
  9
$CELTYPE
  6
ByLayer
  9
$CECOLOR
 62
   256
  9
$CELTSCALE
 40
1.0
  9
$DISPSILH
 70
     0
  9
$DIMSCALE
 40
1.0
  9
$DIMASZ
 40
0.18
  9
$DIMEXO
 40
0.0625
  9
$DIMDLI
 40
0.38
  9
$DIMRND
 40
0.0
  9
$DIMDLE
 40
0.0
  9
$DIMEXE
 40
0.18
  9
$DIMTP
 40
0.0
  9
$DIMTM
 40
0.0
  9
$DIMTXT
 40
5.0
  9
$DIMCEN
 40
0.09
  9
$DIMTSZ
 40
0.0
  9
$DIMTOL
 70
     0
  9
$DIMLIM
 70
     0
  9
$DIMTIH
 70
     1
  9
$DIMTOH
 70
     1
  9
$DIMSE1
 70
     0
  9
$DIMSE2
 70
     0
  9
$DIMTAD
 70
     0
  9
$DIMZIN
 70
     0
  9
$DIMBLK
  1

  9
$DIMASO
 70
     1
  9
$DIMSHO
 70
     1
  9
$DIMPOST
  1

  9
$DIMAPOST
  1

  9
$DIMALT
 70
     0
  9
$DIMALTD
 70
     2
  9
$DIMALTF
 40
25.4
  9
$DIMLFAC
 40
1.0
  9
$DIMTOFL
 70
     0
  9
$DIMTVP
 40
0.0
  9
$DIMTIX
 70
     0
  9
$DIMSOXD
 70
     0
  9
$DIMSAH
 70
     0
  9
$DIMBLK1
  1

  9
$DIMBLK2
  1

  9
$DIMSTYLE
  2
Imperial
  9
$DIMCLRD
 70
     0
  9
$DIMCLRE
 70
     0
  9
$DIMCLRT
 70
     0
  9
$DIMTFAC
 40
1.0
  9
$DIMGAP
 40
0.09
  9
$DIMJUST
 70
     0
  9
$DIMSD1
 70
     0
  9
$DIMSD2
 70
     0
  9
$DIMTOLJ
 70
     1
  9
$DIMTZIN
 70
     0
  9
$DIMALTZ
 70
     0
  9
$DIMALTTZ
 70
     0
  9
$DIMUPT
 70
     1
  9
$DIMDEC
 70
     3
  9
$DIMTDEC
 70
     3
  9
$DIMALTU
 70
     2
  9
$DIMALTTD
 70
     2
  9
$DIMTXSTY
  7
Standard
  9
$DIMAUNIT
 70
     0
  9
$DIMADEC
 70
     0
  9
$DIMALTRND
 40
0.0
  9
$DIMAZIN
 70
     0
  9
$DIMDSEP
 70
    46
  9
$DIMATFIT
 70
     3
  9
$DIMFRAC
 70
     1
  9
$DIMLDRBLK
  1

  9
$DIMLUNIT
 70
     5
  9
$DIMLWD
 70
    -2
  9
$DIMLWE
 70
    -2
  9
$DIMTMOVE
 70
     0
  9
$LUNITS
 70
     2
  9
$LUPREC
 70
     4
  9
$SKETCHINC
 40
0.1
  9
$FILLETRAD
 40
0.0
  9
$AUNITS
 70
     0
  9
$AUPREC
 70
     0
  9
$MENU
  1
.
  9
$ELEVATION
 40
0.0
  9
$PELEVATION
 40
0.0
  9
$THICKNESS
 40
0.0
  9
$LIMCHECK
 70
     0
  9
$CHAMFERA
 40
0.0
  9
$CHAMFERB
 40
0.0
  9
$CHAMFERC
 40
0.0
  9
$CHAMFERD
 40
0.0
  9
$SKPOLY
 70
     0
  9
$TDCREATE
 40
2453277.383468472
  9
$TDUCREATE
 40
2453276.987635139
  9
$TDUPDATE
 40
2453278.474634606
  9
$TDUUPDATE
 40
2453278.078801274
  9
$TDINDWG
 40
0.1444131019
  9
$TDUSRTIMER
 40
0.1444129167
  9
$USRTIMER
 70
     1
  9
$ANGBASE
 50
0.0
  9
$ANGDIR
 70
     0
  9
$PDMODE
 70
     0
  9
$PDSIZE
 40
0.0
  9
$PLINEWID
 40
0.0
  9
$SPLFRAME
 70
     0
  9
$SPLINETYPE
 70
     6
  9
$SPLINESEGS
 70
     8
  9
$HANDSEED
  5
494
  9
$SURFTAB1
 70
     6
  9
$SURFTAB2
 70
     6
  9
$SURFTYPE
 70
     6
  9
$SURFU
 70
     6
  9
$SURFV
 70
     6
  9
$UCSBASE
  2

  9
$UCSNAME
  2

  9
$UCSORG
 10
0.0
 20
0.0
 30
0.0
  9
$UCSXDIR
 10
1.0
 20
0.0
 30
0.0
  9
$UCSYDIR
 10
0.0
 20
1.0
 30
0.0
  9
$UCSORTHOREF
  2

  9
$UCSORTHOVIEW
 70
     0
  9
$UCSORGTOP
 10
0.0
 20
0.0
 30
0.0
  9
$UCSORGBOTTOM
 10
0.0
 20
0.0
 30
0.0
  9
$UCSORGLEFT
 10
0.0
 20
0.0
 30
0.0
  9
$UCSORGRIGHT
 10
0.0
 20
0.0
 30
0.0
  9
$UCSORGFRONT
 10
0.0
 20
0.0
 30
0.0
  9
$UCSORGBACK
 10
0.0
 20
0.0
 30
0.0
  9
$PUCSBASE
  2

  9
$PUCSNAME
  2

  9
$PUCSORG
 10
0.0
 20
0.0
 30
0.0
  9
$PUCSXDIR
 10
1.0
 20
0.0
 30
0.0
  9
$PUCSYDIR
 10
0.0
 20
1.0
 30
0.0
  9
$PUCSORTHOREF
  2

  9
$PUCSORTHOVIEW
 70
     0
  9
$PUCSORGTOP
 10
0.0
 20
0.0
 30
0.0
  9
$PUCSORGBOTTOM
 10
0.0
 20
0.0
 30
0.0
  9
$PUCSORGLEFT
 10
0.0
 20
0.0
 30
0.0
  9
$PUCSORGRIGHT
 10
0.0
 20
0.0
 30
0.0
  9
$PUCSORGFRONT
 10
0.0
 20
0.0
 30
0.0
  9
$PUCSORGBACK
 10
0.0
 20
0.0
 30
0.0
  9
$USERI1
 70
     0
  9
$USERI2
 70
     0
  9
$USERI3
 70
     0
  9
$USERI4
 70
     0
  9
$USERI5
 70
     0
  9
$USERR1
 40
0.0
  9
$USERR2
 40
0.0
  9
$USERR3
 40
0.0
  9
$USERR4
 40
0.0
  9
$USERR5
 40
0.0
  9
$WORLDVIEW
 70
     1
  9
$SHADEDGE
 70
     3
  9
$SHADEDIF
 70
    70
  9
$TILEMODE
 70
     1
  9
$MAXACTVP
 70
    64
  9
$PINSBASE
 10
0.0
 20
0.0
 30
0.0
  9
$PLIMCHECK
 70
     0
  9
$PEXTMIN
 10
1.000000000000000E+20
 20
1.000000000000000E+20
 30
1.000000000000000E+20
  9
$PEXTMAX
 10
-1.000000000000000E+20
 20
-1.000000000000000E+20
 30
-1.000000000000000E+20
  9
$PLIMMIN
 10
0.0
 20
0.0
  9
$PLIMMAX
 10
12.0
 20
9.0
  9
$UNITMODE
 70
     0
  9
$VISRETAIN
 70
     1
  9
$PLINEGEN
 70
     0
  9
$PSLTSCALE
 70
     1
  9
$TREEDEPTH
 70
  3020
  9
$CMLSTYLE
  2
Standard
  9
$CMLJUST
 70
     0
  9
$CMLSCALE
 40
1.0
  9
$PROXYGRAPHICS
 70
     1
  9
$MEASUREMENT
 70
     0
  9
$CELWEIGHT
370
    -1
  9
$ENDCAPS
280
     0
  9
$JOINSTYLE
280
     0
  9
$LWDISPLAY
290
     0
  9
$INSUNITS
 70
     1
  9
$HYPERLINKBASE
  1

  9
$STYLESHEET
  1
monochrome.ctb
  9
$XEDIT
290
     1
  9
$CEPSNTYPE
380
     0
  9
$PSTYLEMODE
290
     1
  9
$FINGERPRINTGUID
  2
{25A17B60-3E2E-457D-89A6-39B8944E5A26}
  9
$VERSIONGUID
  2
{1C60E975-068D-47FE-827A-F574113F7F2E}
  9
$EXTNAMES
290
     1
  9
$PSVPSCALE
 40
0.0
  9
$OLESTARTUP
290
     0
  0
ENDSEC
  0
SECTION
  2
CLASSES
  0
CLASS
  1
ACDBDICTIONARYWDFLT
  2
AcDbDictionaryWithDefault
  3
ObjectDBX Classes
 90
        0
280
     0
281
     0
  0
CLASS
  1
DIMASSOC
  2
AcDbDimAssoc
  3
"AcDbDimAssoc|Product Desc:     AcDim ARX App For Dimension|Company:          Autodesk, Inc.|WEB Address:      www.autodesk.com"
 90
    32768
280
     0
281
     0
  0
CLASS
  1
DICTIONARYVAR
  2
AcDbDictionaryVar
  3
ObjectDBX Classes
 90
        0
280
     0
281
     0
  0
CLASS
  1
ACDBPLACEHOLDER
  2
AcDbPlaceHolder
  3
ObjectDBX Classes
 90
        0
280
     0
281
     0
  0
CLASS
  1
LAYOUT
  2
AcDbLayout
  3
ObjectDBX Classes
 90
        0
280
     0
281
     0
  0
ENDSEC
  0
SECTION
  2
TABLES
  0
TABLE
  2
VPORT
  5
8
330
0
100
AcDbSymbolTable
 70
     2
  0
VPORT
  5
48A
330
8
100
AcDbSymbolTableRecord
100
AcDbViewportTableRecord
  2
*Active
 70
     0
 10
0.0
 20
0.0
 11
1.0
 21
1.0
 12
3.617114464600376
 22
2.328036250581192
 13
0.0
 23
0.0
 14
0.5
 24
0.5
 15
0.5
 25
0.5
 16
0.0
 26
0.0
 36
1.0
 17
0.0
 27
0.0
 37
0.0
 40
10.91125309334679
 41
1.688581314878892
 42
50.0
 43
0.0
 44
0.0
 50
0.0
 51
0.0
 71
     0
 72
  1000
 73
     1
 74
     3
 75
     0
 76
     0
 77
     0
 78
     0
281
     0
 65
     1
110
0.0
120
0.0
130
0.0
111
1.0
121
0.0
131
0.0
112
0.0
122
1.0
132
0.0
 79
     0
146
0.0
  0
ENDTAB
  0
TABLE
  2
LTYPE
  5
5
330
0
100
AcDbSymbolTable
 70
     1
  0
LTYPE
  5
14
330
5
100
AcDbSymbolTableRecord
100
AcDbLinetypeTableRecord
  2
ByBlock
 70
     0
  3

 72
    65
 73
     0
 40
0.0
  0
LTYPE
  5
15
330
5
100
AcDbSymbolTableRecord
100
AcDbLinetypeTableRecord
  2
ByLayer
 70
     0
  3

 72
    65
 73
     0
 40
0.0
  0
LTYPE
  5
16
330
5
100
AcDbSymbolTableRecord
100
AcDbLinetypeTableRecord
  2
Continuous
 70
     0
  3
Solid line
 72
    65
 73
     0
 40
0.0
  0
ENDTAB
  0
TABLE
  2
LAYER
  5
2
330
0
100
AcDbSymbolTable
 70
     2
  0
LAYER
  5
10
330
2
100
AcDbSymbolTableRecord
100
AcDbLayerTableRecord
  2
0
 70
     0
 62
     7
  6
Continuous
370
    -3
390
F
  0
LAYER
  5
2F
330
2
100
AcDbSymbolTableRecord
100
AcDbLayerTableRecord
  2
Defpoints
 70
     0
 62
     7
  6
Continuous
290
     0
370
    -3
390
F
  0
ENDTAB
  0
TABLE
  2
STYLE
  5
3
330
0
100
AcDbSymbolTable
 70
     1
  0
STYLE
  5
11
330
3
100
AcDbSymbolTableRecord
100
AcDbTextStyleTableRecord
  2
Standard
 70
     0
 40
0.0
 41
1.0
 50
0.0
 71
     0
 42
0.2
  3
txt
  4

  0
ENDTAB
  0
TABLE
  2
VIEW
  5
6
330
0
100
AcDbSymbolTable
 70
     0
  0
ENDTAB
  0
TABLE
  2
UCS
  5
7
330
0
100
AcDbSymbolTable
 70
     0
  0
ENDTAB
  0
TABLE
  2
APPID
  5
9
330
0
100
AcDbSymbolTable
 70
     1
  0
APPID
  5
12
330
9
100
AcDbSymbolTableRecord
100
AcDbRegAppTableRecord
  2
ACAD
 70
     0
  0
ENDTAB
  0
TABLE
  2
DIMSTYLE
  5
A
330
0
100
AcDbSymbolTable
 70
     4
100
AcDbDimStyleTable
 71
     2
340
49
340
29
  0
DIMSTYLE
105
29
330
A
100
AcDbSymbolTableRecord
100
AcDbDimStyleTableRecord
  2
Standard
 70
     0
340
11
  0
DIMSTYLE
105
49
330
A
100
AcDbSymbolTableRecord
100
AcDbDimStyleTableRecord
  2
Imperial
 70
     0
271
     3
272
     3
276
     1
277
     5
340
11
  0
DIMSTYLE
105
36B
330
A
100
AcDbSymbolTableRecord
100
AcDbDimStyleTableRecord
  2
ISO2
 70
     0
 41
20.0
 42
5.0
 43
30.0
 44
10.0
 74
     0
 77
     1
 78
     8
140
20.0
141
20.0
143
0.0394
145
8.0
147
5.0
172
     1
340
11
  0
DIMSTYLE
105
40C
330
A
100
AcDbSymbolTableRecord
100
AcDbDimStyleTableRecord
  2
ISO-25
 70
     0
 41
2.5
 42
0.625
 43
3.75
 44
1.25
 73
     0
 74
     0
 77
     1
 78
     8
140
2.5
141
2.5
143
0.03937007874016
147
0.625
171
     3
172
     1
271
     2
272
     2
274
     3
278
    44
283
     0
284
     8
340
11
  0
ENDTAB
  0
TABLE
  2
BLOCK_RECORD
  5
1
330
0
100
AcDbSymbolTable
 70
    14
  0
BLOCK_RECORD
  5
21
330
1
100
AcDbSymbolTableRecord
100
AcDbBlockTableRecord
  2
*Model_Space
340
24
  0
BLOCK_RECORD
  5
1D
330
1
100
AcDbSymbolTableRecord
100
AcDbBlockTableRecord
  2
*Paper_Space
340
20
  0
BLOCK_RECORD
  5
25
330
1
100
AcDbSymbolTableRecord
100
AcDbBlockTableRecord
  2
*Paper_Space0
340
28
  0
BLOCK_RECORD
  5
211
330
1
100
AcDbSymbolTableRecord
100
AcDbBlockTableRecord
  2
A$C5B7C6E2D
340
0
  0
BLOCK_RECORD
  5
3B2
330
1
100
AcDbSymbolTableRecord
100
AcDbBlockTableRecord
  2
A$C2CCD1595
340
0
  0
ENDTAB
  0
ENDSEC
  0
SECTION
  2
BLOCKS
  0
BLOCK
  5
22
330
21
100
AcDbEntity
  8
0
100
AcDbBlockBegin
  2
*Model_Space
 70
     0
 10
0.0
 20
0.0
 30
0.0
  3
*Model_Space
  1

  0
ENDBLK
  5
23
330
21
100
AcDbEntity
  8
0
100
AcDbBlockEnd
  0
BLOCK
  5
1E
330
1D
100
AcDbEntity
 67
     1
  8
0
100
AcDbBlockBegin
  2
*Paper_Space
 70
     0
 10
0.0
 20
0.0
 30
0.0
  3
*Paper_Space
  1

  0
ENDBLK
  5
1F
330
1D
100
AcDbEntity
 67
     1
  8
0
100
AcDbBlockEnd
  0
BLOCK
  5
26
330
25
100
AcDbEntity
  8
0
100
AcDbBlockBegin
  2
*Paper_Space0
 70
     0
 10
0.0
 20
0.0
 30
0.0
  3
*Paper_Space0
  1

  0
ENDBLK
  5
27
330
25
100
AcDbEntity
  8
0
100
AcDbBlockEnd
  0
BLOCK
  5
22C
330
211
100
AcDbEntity
  8
0
100
AcDbBlockBegin
  2
A$C5B7C6E2D
 70
     0
 10
0.0
 20
0.0
 30
0.0
  3
A$C5B7C6E2D
  1

  0
ARC
  5
212
330
211
100
AcDbEntity
  8
0
100
AcDbCircle
 10
1132.400000257944
 20
363.0446613255601
 30
0.0
 40
24.1999999999996
100
AcDbArc
 50
359.9999999999953
 51
44.99999999999583
  0
LINE
  5
213
330
211
100
AcDbEntity
  8
0
100
AcDbLine
 10
1100.156645303332
 20
429.5119844895991
 30
0.0
 11
1149.51198436266
 21
380.1566454302731
 31
0.0
  0
ARC
  5
214
330
211
100
AcDbEntity
  8
0
100
AcDbCircle
 10
1083.044661198617
 20
412.4000003848843
 30
0.0
 40
24.20000000000062
100
AcDbArc
 50
44.99999999999928
 51
89.9999999999992
  0
ARC
  5
215
330
211
100
AcDbEntity
  8
0
100
AcDbCircle
 10
476.3000002579452
 20
327.4000003848848
 30
0.0
 40
109.2000000000002
100
AcDbArc
 50
90.0
 51
142.4533233600483
  0
ARC
  5
216
330
211
100
AcDbEntity
  8
0
100
AcDbCircle
 10
365.3000002579461
 20
412.7170561240525
 30
0.0
 40
30.79999999999961
100
AcDbArc
 50
269.9999999999984
 51
322.4533233600471
  0
ARC
  5
217
330
211
100
AcDbEntity
  8
0
100
AcDbCircle
 10
254.3000002579451
 20
327.4000003848844
 30
0.0
 40
109.2000000000007
100
AcDbArc
 50
37.54667663995213
 51
90.00000000000081
  0
LINE
  5
218
330
211
100
AcDbEntity
  8
0
100
AcDbLine
 10
73.55533931727086
 20
436.6000003848851
 30
0.0
 11
254.3000002579433
 21
436.6000003848851
 31
0.0
  0
ARC
  5
219
330
211
100
AcDbEntity
  8
0
100
AcDbCircle
 10
365.3000002579442
 20
412.7170561240525
 30
0.0
 40
30.79999999999979
100
AcDbArc
 50
217.5466766399536
 51
270.0000000000017
  0
LINE
  5
21A
330
211
100
AcDbEntity
  8
0
100
AcDbLine
 10
476.3000002579452
 20
436.6000003848851
 30
0.0
 11
1083.044661198617
 21
436.6000003848851
 31
0.0
  0
LINE
  5
21B
330
211
100
AcDbEntity
  8
0
100
AcDbLine
 10
7.08801615323
 20
380.1566454302731
 30
0.0
 11
56.44335521255789
 21
429.5119844895991
 31
0.0
  0
ARC
  5
21C
330
211
100
AcDbEntity
  8
0
100
AcDbCircle
 10
24.20000025794479
 20
363.0446613255581
 30
0.0
 40
24.20000000000033
100
AcDbArc
 50
134.9999999999991
 51
179.9999999999994
  0
ARC
  5
21D
330
211
100
AcDbEntity
  8
0
100
AcDbCircle
 10
73.55533931727268
 20
412.4000003848866
 30
0.0
 40
24.19999999999848
100
AcDbArc
 50
90.00000000000325
 51
135.0000000000028
  0
ARC
  5
21E
330
211
100
AcDbEntity
  8
0
100
AcDbCircle
 10
1132.400000257947
 20
73.55533944421245
 30
0.0
 40
24.19999999999755
100
AcDbArc
 50
315.0000000000026
 51
0.0000000000022391
  0
ARC
  5
21F
330
211
100
AcDbEntity
  8
0
100
AcDbCircle
 10
1083.044661198617
 20
24.20000038488684
 30
0.0
 40
24.20000000000016
100
AcDbArc
 50
270.0
 51
315.0000000000006
  0
LINE
  5
220
330
211
100
AcDbEntity
  8
0
100
AcDbLine
 10
1149.51198436266
 20
56.44335533950038
 30
0.0
 11
1100.156645303332
 21
7.088016280172496
 31
0.0
  0
ARC
  5
221
330
211
100
AcDbEntity
  8
0
100
AcDbCircle
 10
365.3000002579461
 20
23.88294464571936
 30
0.0
 40
30.79999999999949
100
AcDbArc
 50
37.54667663995278
 51
90.00000000000161
  0
ARC
  5
222
330
211
100
AcDbEntity
  8
0
100
AcDbCircle
 10
365.3000002579442
 20
23.88294464571891
 30
0.0
 40
30.79999999999996
100
AcDbArc
 50
89.99999999999836
 51
142.4533233600464
  0
LINE
  5
223
330
211
100
AcDbEntity
  8
0
100
AcDbLine
 10
254.3000002579451
 20
0.0000003848865617
 30
0.0
 11
73.55533931727268
 21
0.0000003848865617
 31
0.0
  0
ARC
  5
224
330
211
100
AcDbEntity
  8
0
100
AcDbCircle
 10
254.3000002579461
 20
109.2000003848859
 30
0.0
 40
109.1999999999993
100
AcDbArc
 50
270.0
 51
322.4533233600486
  0
ARC
  5
225
330
211
100
AcDbEntity
  8
0
100
AcDbCircle
 10
476.3000002579452
 20
109.2000003848866
 30
0.0
 40
109.2
100
AcDbArc
 50
217.5466766399515
 51
270.0
  0
LINE
  5
226
330
211
100
AcDbEntity
  8
0
100
AcDbLine
 10
1083.044661198617
 20
0.0000003848865617
 30
0.0
 11
476.3000002579452
 21
0.0000003848865617
 31
0.0
  0
ARC
  5
227
330
211
100
AcDbEntity
  8
0
100
AcDbCircle
 10
24.20000025794479
 20
73.55533944421359
 30
0.0
 40
24.20000000000047
100
AcDbArc
 50
180.0000000000004
 51
225.0000000000007
  0
LINE
  5
228
330
211
100
AcDbEntity
  8
0
100
AcDbLine
 10
56.44335521255789
 20
7.088016280170677
 30
0.0
 11
7.08801615323
 21
56.44335533949856
 31
0.0
  0
ARC
  5
229
330
211
100
AcDbEntity
  8
0
100
AcDbCircle
 10
73.55533931727086
 20
24.20000038488615
 30
0.0
 40
24.19999999999959
100
AcDbArc
 50
225.0000000000042
 51
270.0000000000049
  0
LINE
  5
22A
330
211
100
AcDbEntity
  8
0
100
AcDbLine
 10
0.0000002579440661
 20
73.55533944421336
 30
0.0
 11
0.0000002579440661
 21
363.0446613255583
 31
0.0
  0
LINE
  5
22B
330
211
100
AcDbEntity
  8
0
100
AcDbLine
 10
1156.600000257944
 20
363.0446613255583
 30
0.0
 11
1156.600000257944
 21
73.55533944421336
 31
0.0
  0
ENDBLK
  5
22D
330
211
100
AcDbEntity
  8
0
100
AcDbBlockEnd
  0
BLOCK
  5
3BB
330
3B2
100
AcDbEntity
  8
0
100
AcDbBlockBegin
  2
A$C2CCD1595
 70
     0
 10
0.0
 20
0.0
 30
0.0
  3
A$C2CCD1595
  1

  0
ARC
  5
3B3
330
3B2
100
AcDbEntity
  8
0
 48
100.0
100
AcDbCircle
 10
327.0000006622273
 20
99.4048125068754
 30
0.0
 40
86.99999999999997
100
AcDbArc
 50
282.3736251161882
 51
0.0
  0
LINE
  5
3B4
330
3B2
100
AcDbEntity
  8
0
 48
100.0
100
AcDbLine
 10
414.0000006622273
 20
256.3965857539679
 30
0.0
 11
414.0000006622273
 21
99.40481250687485
 31
0.0
  0
ARC
  5
3B5
330
3B2
100
AcDbEntity
  8
0
 48
100.0
100
AcDbCircle
 10
327.0000006622273
 20
256.3965857539679
 30
0.0
 40
87.0
100
AcDbArc
 50
0.0
 51
90.0
  0
LINE
  5
3B6
330
3B2
100
AcDbEntity
  8
0
 48
100.0
100
AcDbLine
 10
87.00000066222736
 20
343.3965857539679
 30
0.0
 11
327.0000006622273
 21
343.3965857539679
 31
0.0
  0
ARC
  5
3B7
330
3B2
100
AcDbEntity
  8
0
 48
100.0
100
AcDbCircle
 10
87.00000066222756
 20
256.3965857539677
 30
0.0
 40
87.0000000000002
100
AcDbArc
 50
90.0
 51
180.0
  0
LINE
  5
3B8
330
3B2
100
AcDbEntity
  8
0
 48
100.0
100
AcDbLine
 10
0.0000006622273645
 20
99.40481250687486
 30
0.0
 11
0.0000006622273645
 21
256.3965857539679
 31
0.0
  0
ARC
  5
3B9
330
3B2
100
AcDbEntity
  8
0
 48
100.0
100
AcDbCircle
 10
87.00000066222719
 20
99.40481250687525
 30
0.0
 40
86.99999999999983
100
AcDbArc
 50
180.0
 51
257.6263748838119
  0
ARC
  5
3BA
330
3B2
100
AcDbEntity
  8
0
 48
100.0
100
AcDbCircle
 10
207.0000006622272
 20
646.3965857539682
 30
0.0
 40
646.999999999999
100
AcDbArc
 50
257.6263748838119
 51
282.3736251161882
  0
ENDBLK
  5
3BC
330
3B2
100
AcDbEntity
  8
0
100
AcDbBlockEnd
  0
ENDSEC
  0
SECTION
  2
ENTITIES
  0
ARC
  5
475
330
21
100
AcDbEntity
  8
0
 48
100.0
100
AcDbCircle
 10
-13.5260218436708
 20
2.323340961933809
 30
0.0
 40
23.5618595939994
100
AcDbArc
 50
353.6121988133138
 51
6.387801186686218
  0
ARC
  5
476
330
21
100
AcDbEntity
  8
0
 48
100.0
100
AcDbCircle
 10
7.226915922657241
 20
0.000000000000199
 30
0.0
 40
2.679275003999955
100
AcDbArc
 50
277.5281718966926
 51
353.6121988133122
  0
ARC
  5
477
330
21
100
AcDbEntity
  8
0
 48
100.0
100
AcDbCircle
 10
3.613457961328549
 20
27.34304136693433
 30
0.0
 40
30.26004710400037
100
AcDbArc
 50
262.4718281033058
 51
277.5281718966942
  0
ARC
  5
478
330
21
100
AcDbEntity
  8
0
 48
100.0
100
AcDbCircle
 10
0.0
 20
0.0
 30
0.0
 40
2.679275003999791
100
AcDbArc
 50
186.3878011866846
 51
262.471828103304
  0
ARC
  5
479
330
21
100
AcDbEntity
  8
0
 48
100.0
100
AcDbCircle
 10
20.75293776632816
 20
2.323340961933809
 30
0.0
 40
23.5618595939994
100
AcDbArc
 50
173.6121988133138
 51
186.3878011866862
  0
ARC
  5
47A
330
21
100
AcDbEntity
  8
0
 48
100.0
100
AcDbCircle
 10
0.0
 20
4.646681923867589
 30
0.0
 40
2.67927500399979
100
AcDbArc
 50
97.52817189669599
 51
173.6121988133154
  0
ARC
  5
47B
330
21
100
AcDbEntity
  8
0
 48
100.0
100
AcDbCircle
 10
3.613457961328549
 20
-22.69635944306674
 30
0.0
 40
30.26004710400037
100
AcDbArc
 50
82.47182810330578
 51
97.52817189669421
  0
ARC
  5
47C
330
21
100
AcDbEntity
  8
0
 48
100.0
100
AcDbCircle
 10
7.226915922657241
 20
4.646681923867419
 30
0.0
 40
2.679275003999952
100
AcDbArc
 50
6.387801186687807
 51
82.47182810330738
  0
ENDSEC
  0
SECTION
  2
OBJECTS
  0
DICTIONARY
  5
C
330
0
100
AcDbDictionary
281
     1
  3
ACAD_COLOR
350
1C
  3
ACAD_GROUP
350
D
  3
ACAD_LAYOUT
350
1A
  3
ACAD_MATERIAL
350
1B
  3
ACAD_MLINESTYLE
350
17
  3
ACAD_PLOTSETTINGS
350
19
  3
ACAD_PLOTSTYLENAME
350
E
  3
ACDBHEADERROUNDTRIPXREC
350
48B
  3
AcDbVariableDictionary
350
19B
  0
DICTIONARY
  5
1C
102
{ACAD_REACTORS
330
C
102
}
330
C
100
AcDbDictionary
281
     1
  0
DICTIONARY
  5
D
102
{ACAD_REACTORS
330
C
102
}
330
C
100
AcDbDictionary
281
     1
  0
DICTIONARY
  5
1A
102
{ACAD_REACTORS
330
C
102
}
330
C
100
AcDbDictionary
281
     1
  3
Layout1
350
20
  3
Layout2
350
28
  3
Model
350
24
  0
DICTIONARY
  5
1B
102
{ACAD_REACTORS
330
C
102
}
330
C
100
AcDbDictionary
281
     1
  0
DICTIONARY
  5
17
102
{ACAD_REACTORS
330
C
102
}
330
C
100
AcDbDictionary
281
     1
  3
Standard
350
18
  0
DICTIONARY
  5
19
102
{ACAD_REACTORS
330
C
102
}
330
C
100
AcDbDictionary
281
     1
  0
ACDBDICTIONARYWDFLT
  5
E
102
{ACAD_REACTORS
330
C
102
}
330
C
100
AcDbDictionary
281
     1
  3
Normal
350
F
100
AcDbDictionaryWithDefault
340
F
  0
DICTIONARY
  5
48B
102
{ACAD_REACTORS
330
C
102
}
330
C
100
AcDbDictionary
281
     1
  3
COLORDICT
350
48D
  3
MATERIALDICT
350
48C
  0
DICTIONARY
  5
19B
102
{ACAD_REACTORS
330
C
102
}
330
C
100
AcDbDictionary
281
     1
  3
DIMASSOC
350
19D
  3
HIDETEXT
350
19C
  3
PROJECTNAME
350
19E
  0
LAYOUT
  5
20
102
{ACAD_XDICTIONARY
360
48E
102
}
102
{ACAD_REACTORS
330
1A
102
}
330
1A
100
AcDbPlotSettings
  1

  2
MUTOH PEN PLOTTER DRIVER
  4

  6

 40
0.0
 41
0.0
 42
0.0
 43
0.0
 44
0.0
 45
0.0
 46
0.0
 47
0.0
 48
0.0
 49
0.0
140
0.0
141
0.0
142
1.0
143
1.0
 70
   688
 72
     0
 73
     0
 74
     5
  7
monochrome.ctb
 75
    16
147
1.0
148
0.0
149
0.0
100
AcDbLayout
  1
Layout1
 70
     1
 71
     1
 10
0.0
 20
0.0
 11
12.0
 21
9.0
 12
0.0
 22
0.0
 32
0.0
 14
1.000000000000000E+20
 24
1.000000000000000E+20
 34
1.000000000000000E+20
 15
-1.000000000000000E+20
 25
-1.000000000000000E+20
 35
-1.000000000000000E+20
146
0.0
 13
0.0
 23
0.0
 33
0.0
 16
1.0
 26
0.0
 36
0.0
 17
0.0
 27
1.0
 37
0.0
 76
     0
330
1D
  0
LAYOUT
  5
28
102
{ACAD_XDICTIONARY
360
492
102
}
102
{ACAD_REACTORS
330
1A
102
}
330
1A
100
AcDbPlotSettings
  1

  2
MUTOH PEN PLOTTER DRIVER
  4

  6

 40
0.0
 41
0.0
 42
0.0
 43
0.0
 44
0.0
 45
0.0
 46
0.0
 47
0.0
 48
0.0
 49
0.0
140
0.0
141
0.0
142
1.0
143
1.0
 70
   688
 72
     0
 73
     0
 74
     5
  7
monochrome.ctb
 75
    16
147
1.0
148
0.0
149
0.0
100
AcDbLayout
  1
Layout2
 70
     1
 71
     2
 10
0.0
 20
0.0
 11
12.0
 21
9.0
 12
0.0
 22
0.0
 32
0.0
 14
0.0
 24
0.0
 34
0.0
 15
0.0
 25
0.0
 35
0.0
146
0.0
 13
0.0
 23
0.0
 33
0.0
 16
1.0
 26
0.0
 36
0.0
 17
0.0
 27
1.0
 37
0.0
 76
     0
330
25
  0
LAYOUT
  5
24
102
{ACAD_XDICTIONARY
360
490
102
}
102
{ACAD_REACTORS
330
1A
102
}
330
1A
100
AcDbPlotSettings
  1

  2
MUTOH PEN PLOTTER DRIVER
  4
User257
  6

 40
25.79374885559082
 41
5.793774604797363
 42
5.7938232421875
 43
5.79376220703125
 44
1189.0
 45
841.0
 46
0.0
 47
0.0
 48
-13.88029040132096
 49
-10.45503773240034
140
12.26900477989147
141
10.01414827133567
142
1.0
143
1.0
 70
 11952
 72
     0
 73
     0
 74
     4
  7
monochrome.ctb
 75
    16
147
1.0
148
352.5593761935525
149
265.5579584029687
100
AcDbLayout
  1
Model
 70
     1
 71
     0
 10
0.0
 20
0.0
 11
12.0
 21
9.0
 12
0.0
 22
0.0
 32
0.0
 14
0.0
 24
0.0
 34
0.0
 15
0.0
 25
0.0
 35
0.0
146
0.0
 13
0.0
 23
0.0
 33
0.0
 16
1.0
 26
0.0
 36
0.0
 17
0.0
 27
1.0
 37
0.0
 76
     0
330
21
  0
MLINESTYLE
  5
18
102
{ACAD_REACTORS
330
17
102
}
330
17
100
AcDbMlineStyle
  2
STANDARD
 70
     0
  3

 62
   256
 51
90.0
 52
90.0
 71
     2
 49
0.5
 62
   256
  6
BYLAYER
 49
-0.5
 62
   256
  6
BYLAYER
  0
ACDBPLACEHOLDER
  5
F
102
{ACAD_REACTORS
330
E
102
}
330
E
  0
XRECORD
  5
48D
102
{ACAD_REACTORS
330
48B
102
}
330
48B
100
AcDbXrecord
280
     1
340
1C
  0
XRECORD
  5
48C
102
{ACAD_REACTORS
330
48B
102
}
330
48B
100
AcDbXrecord
280
     1
340
1B
  0
DICTIONARYVAR
  5
19D
102
{ACAD_REACTORS
330
19B
102
}
330
19B
100
DictionaryVariables
280
     0
  1
2
  0
DICTIONARYVAR
  5
19C
102
{ACAD_REACTORS
330
19B
102
}
330
19B
100
DictionaryVariables
280
     0
  1
1
  0
DICTIONARYVAR
  5
19E
102
{ACAD_REACTORS
330
19B
102
}
330
19B
100
DictionaryVariables
280
     0
  1

  0
DICTIONARY
  5
48E
330
20
100
AcDbDictionary
280
     1
281
     1
  3
ACAD_XREC_ROUNDTRIP
360
48F
  0
DICTIONARY
  5
492
330
28
100
AcDbDictionary
280
     1
281
     1
  3
ACAD_XREC_ROUNDTRIP
360
493
  0
DICTIONARY
  5
490
330
24
100
AcDbDictionary
280
     1
281
     1
  3
ACAD_XREC_ROUNDTRIP
360
491
  0
XRECORD
  5
48F
102
{ACAD_REACTORS
330
48E
102
}
330
48E
100
AcDbXrecord
280
     1
102
SHADEPLOT
 70
     0
102
SHADEPLOTRESLEVEL
 70
     2
102
SHADEPLOTCUSTOMDPI
 70
   300
  0
XRECORD
  5
493
102
{ACAD_REACTORS
330
492
102
}
330
492
100
AcDbXrecord
280
     1
102
SHADEPLOT
 70
     0
102
SHADEPLOTRESLEVEL
 70
     2
102
SHADEPLOTCUSTOMDPI
 70
   300
  0
XRECORD
  5
491
102
{ACAD_REACTORS
330
490
102
}
330
490
100
AcDbXrecord
280
     1
102
SHADEPLOT
 70
     0
102
SHADEPLOTRESLEVEL
 70
     2
102
SHADEPLOTCUSTOMDPI
 70
   127
  0
ENDSEC
  0
EOF
